2012. augusztus 30., csütörtök

Ennyi csak - kottamorzsa

(Újraírtam a bejegyzést, mert sikerült az intro is :-))

Folytatom missziómat, hogy hallás után építsem fel a kottát, amit nem találok. Ma és tegnap sikerült az Ennyi csak c. szám néhány hiányzó részletét lekottázni! :D

Először is lássuk az akkordbontást (forrás):

Verse: B  Dsus2  A  E
Prechorus: B  D  A  E
Chorus: B  F#m  G  A

Az intro és a versszakok alatt szerintem kb. így játsszák az akkordokat (legalábbis én valahogy így):
     B              D            A                E           
     Q    E.  S S S E  E  S S    S S E  E.  S S S E  E.  S  3x
E||-------2---2--------0--0-0-|---------0---0---------------||
B||-------3---3---x----3--3-3-|--x------2---2--------0---0--||
G||-------4---4---x----2--2-2-|--x------2---2--------1---1-*||
D||--4----4---4---x-0--0--0-0-|--x-0----2---2-x------2---2-*||
A||--2--------------0---------|------0--------x-0----2---2--||
E||---------------------------|-------------------0--0---0--||
Az intro:
      B    D      A    E          B    D          A    E            B    D
      W           H.      Q       H.      Q       H.      Q         W
E||------------|---------------|---------------|---------------||------------|
B||------------|---------------|---------------|---------------||------------|
G||------------|---------------|---------------|---------------||------------|
D||--/4--------|---------/9----|--4------/4----|--2-------2\---||------------|
A||------------|---------------|---------------|---------------||--2~--------|
E||------------|---------------|---------------|---------------||------------|
                                                                   1. vsz...
Amikor Kowa a "a felhő is eltűnik majd..." sort énekli (1. és 2. verse közé ékelt prechorus), a kicsengetett A akkord után ez az átvezető 3 hang:
     B              D            A         Em           
     Q    E.  S S S E  E  S S    H         Q    S S E   
E||-------2---2--------2--2-2-|--0---------------------|
B||-------3---3---x----3--3-3-|--2~--------------------|
G||-------4---4---x----2--2-2-|--2~--------------------|
D||--4----4---4---x-0--0--0-0-|--2~--------------------|
A||--2--------------0---------|-----------------0-2-5--|
E||---------------------------|------------------------|
     "A felhő is eltűnik majd..."
Aztán Ganxsta versszaka alatt a slide:
     B  D     A         E              B           D         A    E           
     H  H     Q    Q    E   E.  E.     S  E.  Q    H         H    Q    Q      
E||--------|------------------------|---------------------|------------------|
B||--------|------------------------|---------------------|------------------|
G||--------|---------------14-\-9---|--9/11---~----~------|------------7/----|
D||--------|------------------------|---------------------|------------------|
A||--------|------------------------|---------------------|------------------|
E||--------|------------------------|---------------------|------------------|
                                                                 
      B        D          A         E              B           D
      H        H          Q    Q    E   E.  E.     S  E.  Q    H
E||--------------------|------------------------|---------------------|
B||--------------------|------------------------|---------------------|
G||-/16~-------~-------|---------------14-\-9---|--9/11---~----~------|
D||--------------------|------------------------|---------------------|
A||--------------------|------------------------|---------------------|
E||--------------------|------------------------|---------------------|

     A     E                     B
     H     E  T S. S T S. S      W     
E||--------------------------||---------------------|
B||-----------7/9----7/9--9\-||---------------------|
G||-----------7/9----7/9--9\-||--/4~----------------|
D||-----------7/9----7/9--9\-||--/4~----------------|
A||--------------------------||---------------------|
E||--------------------------||---------------------|
             (^Ez csak tipp^)      Innentől Kowa versszaka ("Puha minden...")

W = 1/1
H = 1/2
Q = 1/4
E = 1/8
S = 1/16
T = 1/32

tempo = 88 BPM
Ami még hiányzik: a versszakok és refrén alatti wah effektes hangok. Remélem, majd ezeket is sikerül kitalálnom valamikor, most ennyire futotta. :)

2 megjegyzés:

Richard O. Legendi írta...

Hali! Nem tudom, a Guitar Pro-t ismered-e, de szerintem mindenképp próbáld ki, hasonló taskokhoz sokat segíthet. Van egy MySongBook.com oldal is, ahonnan tonnányi anyagot lehetett régen letölteni, és te is feltohlatod a kottát, ha egyszer elkészül.

juzraai írta...

Hali!

Igen, a Guitar Pro-t ismerem, ott szoktam lejegyezni ezeket a dolgokat, meg kikísérletezni a pontos időtartamokat.:) Sokat szerkesztettem már vele, több éve használom.:)

A MySongBook-ról viszont még nem hallottam, bele is lapozok, köszi.:)

Én a 911tabs.com és az Ultimate-Guitar.com oldalakról szoktam kottát tölteni.:)