2012. augusztus 25., szombat

Ki van ez találva - kottamorzsa

Akik ismernek, tudják, hogy hobbi szinten gitározom is, illetve a korábbi blogomra tettem fel 1-1 kisebb kotta részletet (most csodálkozom is picit, hogy ide nem emeltem át, majd lehet pótolom), amit én találtam ki hallás után, vagy egy meglévőt formáltam át, egyszerűsítettem.

Mostanság a Kowalsky meg a Vega zenéjével örvendeztetem füleim. Egyik kedvenc számom tőlük a Ki van ez találva. Sajnos Kowa kottákból elég gyér a választék a neten, ehhez a dalhoz is csak akkordbontást találtam. Viszont a nyitó dallamot is jó lenne játszani, mert hozzá tartozik a dalhoz.

Ezt sikerült most gitárral a kézben félig improvizálva, félig hallás után egyeztetve összeraknom. Nagy öröm, amikor az ember (aki amatőr) maga kottáz le egy kis dalrészletet, szólót, és az eredetivel együtt játszva egybecsengenek a hangok! :)


Íme:
     Q     Q     E  E  E  E     E  E  E  E  H           
E||--------------------------|--------------------------||
B||--5-----5-----------------|--------------------------||
G||--------------5--4--2--0--|-(0)-2--4--2-(2)---------*||
D||--------------------------|-------------------------*||
A||--------------------------|--------------------------||
E||--------------------------|--------------------------||
 
 
     Q     Q     E  E  E  E     E  E  E  E  Q     Q     
E||--------------------------|--------------------------|
B||--5-----5-----------------|--------------------------|
G||--------------5--4--2--0--|-(0)-2--4--2-(2)----4-----|
D||--------------------------|--------------------------|
A||--------------------------|--------------------------|
E||--------------------------|--------------------------|
 
 
     H.                Q        H           Q     Q     
E||--------------------------|--------------------------||
B||--------------------------|--------------------------||
G||--5-----------------------|--------------------------||
D||--------------------5-----|--4-----------2-----0-----||
A||--------------------------|--------------------------||
E||--------------------------|--------------------------||


H = 1/2
Q = 1/4
E = 1/8

tempo = 100 BPM
A dal akkordbontása pedig (forrás):

Em C G D

vége felé a váltás:
F#m D A E

Az intro a végén is hallható, csak két félhanggal (bunddal) feljebb. :)

Nincsenek megjegyzések: